  0
SECTION
  2
HEADER
  9
$ACADVER
  1
AC1015
  9
$ACADMAINTVER
 70
     6
  9
$DWGCODEPAGE
  3
ANSI_1254
  9
$INSBASE
 10
0.0
 20
0.0
 30
0.0
  9
$EXTMIN
 10
0.0
 20
0.0
 30
0.0
  9
$EXTMAX
 10
279.4
 20
215.9
 30
0.0
  9
$LIMMIN
 10
0.0
 20
0.0
  9
$LIMMAX
 10
279.4
 20
215.9
  9
$ORTHOMODE
 70
     0
  9
$REGENMODE
 70
     1
  9
$FILLMODE
 70
     1
  9
$QTEXTMODE
 70
     0
  9
$MIRRTEXT
 70
     1
  9
$LTSCALE
 40
1.0
  9
$ATTMODE
 70
     1
  9
$TEXTSIZE
 40
3.5
  9
$TRACEWID
 40
1.0
  9
$TEXTSTYLE
  7
Standard
  9
$CLAYER
  8
0
  9
$CELTYPE
  6
ByLayer
  9
$CECOLOR
 62
   256
  9
$CELTSCALE
 40
1.0
  9
$DISPSILH
 70
     0
  9
$DIMSCALE
 40
1.0
  9
$DIMASZ
 40
3.5
  9
$DIMEXO
 40
1.0
  9
$DIMDLI
 40
3.75
  9
$DIMRND
 40
0.0
  9
$DIMDLE
 40
0.0
  9
$DIMEXE
 40
1.0
  9
$DIMTP
 40
0.0
  9
$DIMTM
 40
0.0
  9
$DIMTXT
 40
3.5
  9
$DIMCEN
 40
2.5
  9
$DIMTSZ
 40
0.0
  9
$DIMTOL
 70
     0
  9
$DIMLIM
 70
     0
  9
$DIMTIH
 70
     1
  9
$DIMTOH
 70
     1
  9
$DIMSE1
 70
     0
  9
$DIMSE2
 70
     0
  9
$DIMTAD
 70
     1
  9
$DIMZIN
 70
     0
  9
$DIMBLK
  1

  9
$DIMASO
 70
     1
  9
$DIMSHO
 70
     1
  9
$DIMPOST
  1

  9
$DIMAPOST
  1

  9
$DIMALT
 70
     0
  9
$DIMALTD
 70
     3
  9
$DIMALTF
 40
0.0393700787
  9
$DIMLFAC
 40
1.0
  9
$DIMTOFL
 70
     1
  9
$DIMTVP
 40
0.0
  9
$DIMTIX
 70
     0
  9
$DIMSOXD
 70
     0
  9
$DIMSAH
 70
     0
  9
$DIMBLK1
  1

  9
$DIMBLK2
  1

  9
$DIMSTYLE
  2
ISO-25
  9
$DIMCLRD
 70
     0
  9
$DIMCLRE
 70
     0
  9
$DIMCLRT
 70
     0
  9
$DIMTFAC
 40
1.0
  9
$DIMGAP
 40
1.524
  9
$DIMJUST
 70
     0
  9
$DIMSD1
 70
     0
  9
$DIMSD2
 70
     0
  9
$DIMTOLJ
 70
     0
  9
$DIMTZIN
 70
     0
  9
$DIMALTZ
 70
     0
  9
$DIMALTTZ
 70
     0
  9
$DIMUPT
 70
     0
  9
$DIMDEC
 70
     2
  9
$DIMTDEC
 70
     2
  9
$DIMALTU
 70
     2
  9
$DIMALTTD
 70
     3
  9
$DIMTXSTY
  7
Standard
  9
$DIMAUNIT
 70
     0
  9
$DIMADEC
 70
     2
  9
$DIMALTRND
 40
0.0
  9
$DIMAZIN
 70
     0
  9
$DIMDSEP
 70
    44
  9
$DIMATFIT
 70
     3
  9
$DIMFRAC
 70
     0
  9
$DIMLDRBLK
  1

  9
$DIMLUNIT
 70
     2
  9
$DIMLWD
 70
    -2
  9
$DIMLWE
 70
    -2
  9
$DIMTMOVE
 70
     0
  9
$LUNITS
 70
     2
  9
$LUPREC
 70
     2
  9
$SKETCHINC
 40
1.0
  9
$FILLETRAD
 40
10.0
  9
$AUNITS
 70
     0
  9
$AUPREC
 70
     2
  9
$MENU
  1
.
  9
$ELEVATION
 40
0.0
  9
$PELEVATION
 40
0.0
  9
$THICKNESS
 40
0.0
  9
$LIMCHECK
 70
     0
  9
$CHAMFERA
 40
0.0
  9
$CHAMFERB
 40
0.0
  9
$CHAMFERC
 40
0.0
  9
$CHAMFERD
 40
0.0
  9
$SKPOLY
 70
     0
  9
$TDCREATE
 40
2458985.705855636
  9
$TDUCREATE
 40
2458985.580855636
  9
$TDUPDATE
 40
2458985.705855891
  9
$TDUUPDATE
 40
2458985.580855891
  9
$TDINDWG
 40
0.0000000116
  9
$TDUSRTIMER
 40
0.0000000116
  9
$USRTIMER
 70
     1
  9
$ANGBASE
 50
0.0
  9
$ANGDIR
 70
     0
  9
$PDMODE
 70
     0
  9
$PDSIZE
 40
-1.0
  9
$PLINEWID
 40
0.0
  9
$SPLFRAME
 70
     0
  9
$SPLINETYPE
 70
     6
  9
$SPLINESEGS
 70
     8
  9
$HANDSEED
  5
F1
  9
$SURFTAB1
 70
     6
  9
$SURFTAB2
 70
     6
  9
$SURFTYPE
 70
     6
  9
$SURFU
 70
     6
  9
$SURFV
 70
     6
  9
$UCSBASE
  2

  9
$UCSNAME
  2

  9
$UCSORG
 10
0.0
 20
0.0
 30
0.0
  9
$UCSXDIR
 10
1.0
 20
0.0
 30
0.0
  9
$UCSYDIR
 10
0.0
 20
1.0
 30
0.0
  9
$UCSORTHOREF
  2

  9
$UCSORTHOVIEW
 70
     0
  9
$UCSORGTOP
 10
0.0
 20
0.0
 30
0.0
  9
$UCSORGBOTTOM
 10
0.0
 20
0.0
 30
0.0
  9
$UCSORGLEFT
 10
0.0
 20
0.0
 30
0.0
  9
$UCSORGRIGHT
 10
0.0
 20
0.0
 30
0.0
  9
$UCSORGFRONT
 10
0.0
 20
0.0
 30
0.0
  9
$UCSORGBACK
 10
0.0
 20
0.0
 30
0.0
  9
$PUCSBASE
  2

  9
$PUCSNAME
  2

  9
$PUCSORG
 10
0.0
 20
0.0
 30
0.0
  9
$PUCSXDIR
 10
1.0
 20
0.0
 30
0.0
  9
$PUCSYDIR
 10
0.0
 20
1.0
 30
0.0
  9
$PUCSORTHOREF
  2

  9
$PUCSORTHOVIEW
 70
     0
  9
$PUCSORGTOP
 10
0.0
 20
0.0
 30
0.0
  9
$PUCSORGBOTTOM
 10
0.0
 20
0.0
 30
0.0
  9
$PUCSORGLEFT
 10
0.0
 20
0.0
 30
0.0
  9
$PUCSORGRIGHT
 10
0.0
 20
0.0
 30
0.0
  9
$PUCSORGFRONT
 10
0.0
 20
0.0
 30
0.0
  9
$PUCSORGBACK
 10
0.0
 20
0.0
 30
0.0
  9
$USERI1
 70
     0
  9
$USERI2
 70
     0
  9
$USERI3
 70
     0
  9
$USERI4
 70
     0
  9
$USERI5
 70
     0
  9
$USERR1
 40
0.0
  9
$USERR2
 40
0.0
  9
$USERR3
 40
0.0
  9
$USERR4
 40
0.0
  9
$USERR5
 40
0.0
  9
$WORLDVIEW
 70
     1
  9
$SHADEDGE
 70
     3
  9
$SHADEDIF
 70
    70
  9
$TILEMODE
 70
     1
  9
$MAXACTVP
 70
    64
  9
$PINSBASE
 10
0.0
 20
0.0
 30
0.0
  9
$PLIMCHECK
 70
     0
  9
$PEXTMIN
 10
1.0000000000E+20
 20
1.0000000000E+20
 30
1.0000000000E+20
  9
$PEXTMAX
 10
-1.0000000000E+20
 20
-1.0000000000E+20
 30
-1.0000000000E+20
  9
$PLIMMIN
 10
0.0
 20
0.0
  9
$PLIMMAX
 10
420.0
 20
297.0
  9
$UNITMODE
 70
     0
  9
$VISRETAIN
 70
     1
  9
$PLINEGEN
 70
     0
  9
$PSLTSCALE
 70
     1
  9
$TREEDEPTH
 70
  3020
  9
$CMLSTYLE
  2
Standard
  9
$CMLJUST
 70
     0
  9
$CMLSCALE
 40
20.0
  9
$PROXYGRAPHICS
 70
     1
  9
$MEASUREMENT
 70
     1
  9
$CELWEIGHT
370
    -1
  9
$ENDCAPS
280
     0
  9
$JOINSTYLE
280
     0
  9
$LWDISPLAY
290
     1
  9
$INSUNITS
 70
     4
  9
$HYPERLINKBASE
  1

  9
$STYLESHEET
  1

  9
$XEDIT
290
     1
  9
$CEPSNTYPE
380
     0
  9
$PSTYLEMODE
290
     1
  9
$FINGERPRINTGUID
  2
{aae4497e-f4f3-47b5-a4fd-cdad65f6ac5c}
  9
$VERSIONGUID
  2
{FAEB1C32-E019-11D5-929B-00C0DF256EC4}
  9
$EXTNAMES
290
     1
  9
$PSVPSCALE
 40
0.0
  9
$OLESTARTUP
290
     0
  0
ENDSEC
  0
SECTION
  2
CLASSES
  0
CLASS
  1
ACDBDICTIONARYWDFLT
  2
AcDbDictionaryWithDefault
  3
ObjectDBX Classes
 90
        0
280
     0
281
     0
  0
CLASS
  1
VISUALSTYLE
  2
AcDbVisualStyle
  3
ObjectDBX Classes
 90
     4095
280
     0
281
     0
  0
CLASS
  1
MATERIAL
  2
AcDbMaterial
  3
ObjectDBX Classes
 90
     1153
280
     0
281
     0
  0
CLASS
  1
SCALE
  2
AcDbScale
  3
ObjectDBX Classes
 90
     1153
280
     0
281
     0
  0
CLASS
  1
TABLESTYLE
  2
AcDbTableStyle
  3
ObjectDBX Classes
 90
     4095
280
     0
281
     0
  0
CLASS
  1
MLEADERSTYLE
  2
AcDbMLeaderStyle
  3
ACDB_MLEADERSTYLE_CLASS
 90
     4095
280
     0
281
     0
  0
CLASS
  1
SUN
  2
AcDbSun
  3
SCENEOE
 90
     1153
280
     0
281
     0
  0
CLASS
  1
ACDBPLACEHOLDER
  2
AcDbPlaceHolder
  3
ObjectDBX Classes
 90
        0
280
     0
281
     0
  0
CLASS
  1
LAYOUT
  2
AcDbLayout
  3
ObjectDBX Classes
 90
        0
280
     0
281
     0
  0
ENDSEC
  0
SECTION
  2
TABLES
  0
TABLE
  2
VPORT
  5
8
330
0
100
AcDbSymbolTable
 70
     1
  0
VPORT
  5
29
330
8
100
AcDbSymbolTableRecord
100
AcDbViewportTableRecord
  2
*Active
 70
     0
 10
0.0
 20
0.0
 11
1.0
 21
1.0
 12
139.7
 22
107.95
 13
0.0
 23
0.0
 14
10.0
 24
10.0
 15
10.0
 25
10.0
 16
0.0
 26
0.0
 36
1.0
 17
0.0
 27
0.0
 37
0.0
 40
215.9
 41
1.2941176471
 42
50.0
 43
0.0
 44
0.0
 50
0.0
 51
0.0
 71
     0
 72
  2000
 73
     1
 74
     3
 75
     0
 76
     0
 77
     0
 78
     0
281
     0
 65
     1
110
0.0
120
0.0
130
0.0
111
1.0
121
0.0
131
0.0
112
0.0
122
1.0
132
0.0
 79
     0
146
0.0
  0
ENDTAB
  0
TABLE
  2
LTYPE
  5
5
330
0
100
AcDbSymbolTable
 70
     6
  0
LTYPE
  5
14
330
5
100
AcDbSymbolTableRecord
100
AcDbLinetypeTableRecord
  2
ByBlock
 70
     0
  3

 72
    65
 73
     0
 40
0.0
  0
LTYPE
  5
15
330
5
100
AcDbSymbolTableRecord
100
AcDbLinetypeTableRecord
  2
ByLayer
 70
     0
  3

 72
    65
 73
     0
 40
0.0
  0
LTYPE
  5
16
330
5
100
AcDbSymbolTableRecord
100
AcDbLinetypeTableRecord
  2
Continuous
 70
     0
  3
Solid line
 72
    65
 73
     0
 40
0.0
  0
LTYPE
  5
6E
330
5
100
AcDbSymbolTableRecord
100
AcDbLinetypeTableRecord
  2
HIDDEN
 70
     0
  3
Hidden __ __ __ __ __ __ __ __ __ __ __ __ __ __
 72
    65
 73
     2
 40
1.905
 49
1.27
 74
     0
 49
-0.635
 74
     0
  0
LTYPE
  5
6F
330
5
100
AcDbSymbolTableRecord
100
AcDbLinetypeTableRecord
  2
PHANTOM
 70
     0
  3
Phantom ______  __  __  ______  __  __  ______
 72
    65
 73
     6
 40
12.7
 49
6.35
 74
     0
 49
-1.27
 74
     0
 49
1.27
 74
     0
 49
-1.27
 74
     0
 49
1.27
 74
     0
 49
-1.27
 74
     0
  0
LTYPE
  5
70
330
5
100
AcDbSymbolTableRecord
100
AcDbLinetypeTableRecord
  2
CENTER
 70
     0
  3
Center ____ _ ____ _ ____ _ ____ _ ____ _ ____
 72
    65
 73
     4
 40
10.16
 49
6.35
 74
     0
 49
-1.27
 74
     0
 49
1.27
 74
     0
 49
-1.27
 74
     0
  0
LTYPE
  5
71
330
5
100
AcDbSymbolTableRecord
100
AcDbLinetypeTableRecord
  2
CENTERX2
 70
     0
  3
Center (2x) ________  __  ________  __  _____
 72
    65
 73
     4
 40
20.32
 49
12.7
 74
     0
 49
-2.54
 74
     0
 49
2.54
 74
     0
 49
-2.54
 74
     0
  0
LTYPE
  5
72
330
5
100
AcDbSymbolTableRecord
100
AcDbLinetypeTableRecord
  2
DOT2
 70
     0
  3
Dot (.5x) ........................................
 72
    65
 73
     2
 40
0.635
 49
0.0
 74
     0
 49
-0.635
 74
     0
  0
ENDTAB
  0
TABLE
  2
LAYER
  5
2
330
0
100
AcDbSymbolTable
 70
    17
  0
LAYER
  5
10
330
2
100
AcDbSymbolTableRecord
100
AcDbLayerTableRecord
  2
0
 70
     0
 62
     7
  6
Continuous
370
    -3
390
F
  0
LAYER
  5
73
330
2
100
AcDbSymbolTableRecord
100
AcDbLayerTableRecord
  2
FORMAT
 70
     0
 62
     7
  6
Continuous
370
    -3
390
F
  0
LAYER
  5
74
330
2
100
AcDbSymbolTableRecord
100
AcDbLayerTableRecord
  2
YARDIMCI_GEOMETRI
 70
     0
 62
    -6
  6
Continuous
290
     0
370
    -3
390
F
  0
LAYER
  5
75
330
2
100
AcDbSymbolTableRecord
100
AcDbLayerTableRecord
  2
SAYFA_CERCEVESI
 70
     0
 62
     7
  6
Continuous
370
    25
390
F
  0
LAYER
  5
76
330
2
100
AcDbSymbolTableRecord
100
AcDbLayerTableRecord
  2
ANTET
 70
     0
 62
     7
  6
Continuous
370
    -3
390
F
  0
LAYER
  5
77
330
2
100
AcDbSymbolTableRecord
100
AcDbLayerTableRecord
  2
OLCU
 70
     0
 62
   150
  6
Continuous
370
    -3
390
F
  0
LAYER
  5
78
330
2
100
AcDbSymbolTableRecord
100
AcDbLayerTableRecord
  2
METIN
 70
     0
 62
    96
  6
Continuous
370
    -3
390
F
  0
LAYER
  5
79
330
2
100
AcDbSymbolTableRecord
100
AcDbLayerTableRecord
  2
BALON
 70
     0
 62
     5
  6
Continuous
370
    -3
390
F
  0
LAYER
  5
7A
330
2
100
AcDbSymbolTableRecord
100
AcDbLayerTableRecord
  2
VURGU
 70
     0
 62
     7
  6
Continuous
370
    -3
390
F
  0
LAYER
  5
7B
330
2
100
AcDbSymbolTableRecord
100
AcDbLayerTableRecord
  2
SILIK
 70
     0
 62
     7
  6
Continuous
370
    -3
390
F
  0
LAYER
  5
7C
330
2
100
AcDbSymbolTableRecord
100
AcDbLayerTableRecord
  2
MODEL
 70
     0
 62
     7
  6
Continuous
370
    -3
390
F
  0
LAYER
  5
7D
330
2
100
AcDbSymbolTableRecord
100
AcDbLayerTableRecord
  2
DETAYLANDıRMA
 70
     0
 62
   190
  6
Continuous
370
    -3
390
F
  0
LAYER
  5
7E
330
2
100
AcDbSymbolTableRecord
100
AcDbLayerTableRecord
  2
TOLERANS
 70
     0
 62
   230
  6
Continuous
370
    -3
390
F
  0
LAYER
  5
7F
330
2
100
AcDbSymbolTableRecord
100
AcDbLayerTableRecord
  2
MERKEZ_CIZGILERI
 70
     0
 62
    30
  6
Continuous
370
    -3
390
F
  0
LAYER
  5
80
330
2
100
AcDbSymbolTableRecord
100
AcDbLayerTableRecord
  2
KESIT-DETAY_CIZGILERI
 70
     0
 62
     7
  6
Continuous
370
    -3
390
F
  0
LAYER
  5
81
330
2
100
AcDbSymbolTableRecord
100
AcDbLayerTableRecord
  2
\U+041E\U+0421\U+0415\U+0412\U+042B\U+0415
 70
     0
 62
     7
  6
Continuous
370
    -3
390
F
  0
LAYER
  5
82
330
2
100
AcDbSymbolTableRecord
100
AcDbLayerTableRecord
  2
\U+0412\U+041E\U+0414\U+042F\U+041D\U+042B\U+0415_\U+0417\U+041D\U+0410\U+041A\U+0418
 70
     0
 62
    11
  6
Continuous
370
    -3
390
F
  0
ENDTAB
  0
TABLE
  2
STYLE
  5
3
330
0
100
AcDbSymbolTable
 70
     1
  0
STYLE
  5
11
330
3
100
AcDbSymbolTableRecord
100
AcDbTextStyleTableRecord
  2
Standard
 70
     0
 40
0.0
 41
1.0
 50
0.0
 71
     0
 42
3.5
  3
txt
  4

  0
ENDTAB
  0
TABLE
  2
VIEW
  5
6
330
0
100
AcDbSymbolTable
 70
     0
  0
ENDTAB
  0
TABLE
  2
UCS
  5
7
330
0
100
AcDbSymbolTable
 70
     0
  0
ENDTAB
  0
TABLE
  2
APPID
  5
9
330
0
100
AcDbSymbolTable
 70
     1
  0
APPID
  5
12
330
9
100
AcDbSymbolTableRecord
100
AcDbRegAppTableRecord
  2
ACAD
 70
     0
  0
ENDTAB
  0
TABLE
  2
DIMSTYLE
  5
A
330
0
100
AcDbSymbolTable
 70
     1
100
AcDbDimStyleTable
  0
DIMSTYLE
105
27
330
A
100
AcDbSymbolTableRecord
100
AcDbDimStyleTableRecord
  2
ISO-25
 70
     0
 41
2.5
 42
0.625
 43
3.75
 44
1.25
 73
     0
 74
     0
 77
     1
 78
     8
140
2.5
141
2.5
143
0.0393700787
147
0.625
171
     3
172
     1
178
     0
271
     2
272
     2
274
     3
278
    44
283
     0
284
     8
340
11
  0
ENDTAB
  0
TABLE
  2
BLOCK_RECORD
  5
1
330
0
100
AcDbSymbolTable
 70
     2
  0
BLOCK_RECORD
  5
1F
330
1
100
AcDbSymbolTableRecord
100
AcDbBlockTableRecord
  2
*Model_Space
340
22
  0
BLOCK_RECORD
  5
1B
330
1
100
AcDbSymbolTableRecord
100
AcDbBlockTableRecord
  2
*Paper_Space
340
1E
  0
BLOCK_RECORD
  5
23
330
1
100
AcDbSymbolTableRecord
100
AcDbBlockTableRecord
  2
*Paper_Space0
340
26
  0
BLOCK_RECORD
  5
88
330
1
100
AcDbSymbolTableRecord
100
AcDbBlockTableRecord
  2
SW_CENTERMARKSYMBOL_0
340
0
102
{BLKREFS
331
93
102
}
  0
ENDTAB
  0
ENDSEC
  0
SECTION
  2
BLOCKS
  0
BLOCK
  5
20
330
1F
100
AcDbEntity
  8
0
100
AcDbBlockBegin
  2
*Model_Space
 70
     0
 10
0.0
 20
0.0
 30
0.0
  3
*Model_Space
  1

  0
ENDBLK
  5
21
330
1F
100
AcDbEntity
  8
0
100
AcDbBlockEnd
  0
BLOCK
  5
1C
330
1B
100
AcDbEntity
 67
     1
  8
0
100
AcDbBlockBegin
  2
*Paper_Space
 70
     0
 10
0.0
 20
0.0
 30
0.0
  3
*Paper_Space
  1

  0
ENDBLK
  5
1D
330
1B
100
AcDbEntity
 67
     1
  8
0
100
AcDbBlockEnd
  0
BLOCK
  5
24
330
23
100
AcDbEntity
  8
0
100
AcDbBlockBegin
  2
*Paper_Space0
 70
     0
 10
0.0
 20
0.0
 30
0.0
  3
*Paper_Space0
  1

  0
ENDBLK
  5
25
330
23
100
AcDbEntity
  8
0
100
AcDbBlockEnd
  0
BLOCK
  5
89
330
88
100
AcDbEntity
  8
0
100
AcDbBlockBegin
  2
SW_CENTERMARKSYMBOL_0
 70
     0
 10
0.0
 20
0.0
 30
0.0
  3
SW_CENTERMARKSYMBOL_0
  1

  0
LINE
  5
8B
330
88
100
AcDbEntity
  8
FORMAT
 62
     0
100
AcDbLine
 10
0.0
 20
0.0
 30
0.0
 11
0.0
 21
2.5
 31
0.0
  0
LINE
  5
8C
330
88
100
AcDbEntity
  8
FORMAT
 62
     0
100
AcDbLine
 10
0.0
 20
0.0
 30
0.0
 11
-2.5
 21
0.0
 31
0.0
  0
LINE
  5
8D
330
88
100
AcDbEntity
  8
FORMAT
 62
     0
100
AcDbLine
 10
0.0
 20
0.0
 30
0.0
 11
0.0
 21
-2.5
 31
0.0
  0
LINE
  5
8E
330
88
100
AcDbEntity
  8
FORMAT
 62
     0
100
AcDbLine
 10
0.0
 20
0.0
 30
0.0
 11
2.5
 21
0.0
 31
0.0
  0
LINE
  5
8F
330
88
100
AcDbEntity
  8
FORMAT
 62
     0
100
AcDbLine
 10
0.0
 20
5.0
 30
0.0
 11
0.0
 21
102.5
 31
0.0
  0
LINE
  5
90
330
88
100
AcDbEntity
  8
FORMAT
 62
     0
100
AcDbLine
 10
-5.0
 20
0.0
 30
0.0
 11
-102.5
 21
0.0
 31
0.0
  0
LINE
  5
91
330
88
100
AcDbEntity
  8
FORMAT
 62
     0
100
AcDbLine
 10
0.0
 20
-5.0
 30
0.0
 11
0.0
 21
-102.5
 31
0.0
  0
LINE
  5
92
330
88
100
AcDbEntity
  8
FORMAT
 62
     0
100
AcDbLine
 10
5.0
 20
0.0
 30
0.0
 11
102.5
 21
0.0
 31
0.0
  0
ENDBLK
  5
8A
330
88
100
AcDbEntity
  8
0
100
AcDbBlockEnd
  0
ENDSEC
  0
SECTION
  2
ENTITIES
  0
CIRCLE
  5
83
330
1F
100
AcDbEntity
  8
0
  6
Continuous
 62
     7
370
    25
100
AcDbCircle
 10
135.7204942573
 20
109.882282191
 30
0.0
 40
100.0
  0
CIRCLE
  5
84
330
1F
100
AcDbEntity
  8
0
  6
Continuous
 62
     7
370
    25
100
AcDbCircle
 10
135.7204942573
 20
109.882282191
 30
0.0
 40
88.1
  0
CIRCLE
  5
85
330
1F
100
AcDbEntity
  8
0
  6
Continuous
 62
     7
370
    25
100
AcDbCircle
 10
135.7204942573
 20
109.882282191
 30
0.0
 40
87.84341649025257
  0
CIRCLE
  5
86
330
1F
100
AcDbEntity
  8
0
  6
Continuous
 62
     7
370
    25
100
AcDbCircle
 10
135.7204942573
 20
109.882282191
 30
0.0
 40
70.75658350974746
  0
CIRCLE
  5
87
330
1F
100
AcDbEntity
  8
0
  6
Continuous
 62
     7
370
    25
100
AcDbCircle
 10
135.7204942573
 20
109.882282191
 30
0.0
 40
70.50000000000001
  0
INSERT
  5
93
330
1F
100
AcDbEntity
  8
FORMAT
 62
     7
100
AcDbBlockReference
  2
SW_CENTERMARKSYMBOL_0
 10
135.7204942573
 20
109.882282191
 30
0.0
  0
LINE
  5
94
330
1F
100
AcDbEntity
  8
0
  6
Continuous
 62
     7
370
    25
100
AcDbLine
 10
-245.3538725643
 20
209.8822836811
 30
0.0
 11
-357.0293212799
 21
209.8822836811
 31
0.0
  0
LINE
  5
95
330
1F
100
AcDbEntity
  8
0
  6
Continuous
 62
     7
370
    25
100
AcDbLine
 10
-357.0293212799
 20
9.8822807009
 30
0.0
 11
-245.3538725643
 21
9.8822807009
 31
0.0
  0
ARC
  5
96
330
1F
100
AcDbEntity
  8
0
  6
Continuous
 62
     7
370
    25
100
AcDbCircle
 10
-245.3538732863
 20
207.882282191
 30
0.0
 40
1.999999999999986
100
AcDbArc
 50
71.5650511771
 51
90.0
  0
ARC
  5
97
330
1F
100
AcDbEntity
  8
0
  6
Continuous
 62
     7
370
    25
100
AcDbCircle
 10
-245.3538732863
 20
11.882282191
 30
0.0
 40
1.999999999999989
100
AcDbArc
 50
270.0
 51
288.4349488229
  0
LINE
  5
98
330
1F
100
AcDbEntity
  8
0
  6
Continuous
 62
     7
370
    25
100
AcDbLine
 10
-244.7214169918
 20
9.9849124486
 30
0.0
 11
-185.3372181324
 21
29.7796522314
 31
0.0
  0
LINE
  5
99
330
1F
100
AcDbEntity
  8
0
  6
Continuous
 62
     7
370
    25
100
AcDbLine
 10
-185.3372181324
 20
189.9849121506
 30
0.0
 11
-244.7214169918
 21
209.7796519334
 31
0.0
  0
ARC
  5
9A
330
1F
100
AcDbEntity
  8
0
  6
Continuous
 62
     7
370
    25
100
AcDbCircle
 10
-184.7047626456
 20
191.882282191
 30
0.0
 40
2.0
100
AcDbArc
 50
251.5650511771
 51
270.0
  0
ARC
  5
9B
330
1F
100
AcDbEntity
  8
0
  6
Continuous
 62
     7
370
    25
100
AcDbCircle
 10
-184.7047626456
 20
27.882282191
 30
0.0
 40
2.000000000000012
100
AcDbArc
 50
90.0
 51
108.4349488229
  0
LINE
  5
9C
330
1F
100
AcDbEntity
  8
0
  6
Continuous
 62
     7
370
    25
100
AcDbLine
 10
-87.0293105511
 20
189.8822804029
 30
0.0
 11
-184.7047644226
 21
189.8822804029
 31
0.0
  0
LINE
  5
9D
330
1F
100
AcDbEntity
  8
0
  6
Continuous
 62
     7
370
    25
100
AcDbLine
 10
-184.7047644226
 20
29.8822839792
 30
0.0
 11
-87.0293105511
 21
29.8822839792
 31
0.0
  0
LINE
  5
9E
330
1F
100
AcDbEntity
  8
0
  6
Continuous
 62
     7
370
    25
100
AcDbLine
 10
-357.0293212799
 20
209.8822836811
 30
0.0
 11
-357.0293212799
 21
9.8822807009
 31
0.0
  0
LINE
  5
9F
330
1F
100
AcDbEntity
  8
0
  6
Continuous
 62
     7
370
    25
100
AcDbLine
 10
-87.0293105511
 20
189.8822804029
 30
0.0
 11
-87.0293105511
 21
29.8822839792
 31
0.0
  0
LINE
  5
A0
330
1F
100
AcDbEntity
  8
0
  6
Continuous
 62
     1
370
    25
100
AcDbLine
 10
-245.3538725643
 20
209.8822836811
 30
0.0
 11
-245.3538725643
 21
9.8822807009
 31
0.0
  0
LINE
  5
A1
330
1F
100
AcDbEntity
  8
0
  6
Continuous
 62
     1
370
    25
100
AcDbLine
 10
-244.7214169918
 20
209.7796519334
 30
0.0
 11
-244.7214169918
 21
9.9849124486
 31
0.0
  0
LINE
  5
A2
330
1F
100
AcDbEntity
  8
0
  6
Continuous
 62
     1
370
    25
100
AcDbLine
 10
-185.3372181324
 20
189.9849121506
 30
0.0
 11
-185.3372181324
 21
29.7796522314
 31
0.0
  0
LINE
  5
A3
330
1F
100
AcDbEntity
  8
0
  6
Continuous
 62
     1
370
    25
100
AcDbLine
 10
-184.7047644226
 20
189.8822804029
 30
0.0
 11
-184.7047644226
 21
29.8822839792
 31
0.0
  0
LINE
  5
A4
330
1F
100
AcDbEntity
  8
0
  6
Continuous
 62
     7
370
    25
100
AcDbLine
 10
235.7204957474
 20
427.0158647783
 30
0.0
 11
235.7204957474
 21
538.691313494
 31
0.0
  0
LINE
  5
A5
330
1F
100
AcDbEntity
  8
0
  6
Continuous
 62
     7
370
    25
100
AcDbLine
 10
35.7204927672
 20
538.691313494
 30
0.0
 11
35.7204927672
 21
427.0158647783
 31
0.0
  0
ARC
  5
A6
330
1F
100
AcDbEntity
  8
0
  6
Continuous
 62
     7
370
    25
100
AcDbCircle
 10
233.7204942573
 20
427.0158655004
 30
0.0
 40
1.999999999999977
100
AcDbArc
 50
341.5650511771
 51
0.0
  0
ARC
  5
A7
330
1F
100
AcDbEntity
  8
0
  6
Continuous
 62
     7
370
    25
100
AcDbCircle
 10
37.7204942573
 20
427.0158655004
 30
0.0
 40
1.99999999999999
100
AcDbArc
 50
180.0
 51
198.4349488229
  0
LINE
  5
A8
330
1F
100
AcDbEntity
  8
0
  6
Continuous
 62
     7
370
    25
100
AcDbLine
 10
35.8231245149
 20
426.3834092059
 30
0.0
 11
55.6178642977
 21
366.9992103465
 31
0.0
  0
LINE
  5
A9
330
1F
100
AcDbEntity
  8
0
  6
Continuous
 62
     7
370
    25
100
AcDbLine
 10
215.8231242169
 20
366.9992103465
 30
0.0
 11
235.6178639997
 21
426.3834092059
 31
0.0
  0
ARC
  5
AA
330
1F
100
AcDbEntity
  8
0
  6
Continuous
 62
     7
370
    25
100
AcDbCircle
 10
217.7204942573
 20
366.3667548597
 30
0.0
 40
2.000000000000031
100
AcDbArc
 50
161.5650511771
 51
180.0
  0
ARC
  5
AB
330
1F
100
AcDbEntity
  8
0
  6
Continuous
 62
     7
370
    25
100
AcDbCircle
 10
53.7204942573
 20
366.3667548597
 30
0.0
 40
2.000000000000024
100
AcDbArc
 50
0.0
 51
18.4349488229
  0
LINE
  5
AC
330
1F
100
AcDbEntity
  8
0
  6
Continuous
 62
     7
370
    25
100
AcDbLine
 10
215.7204924692
 20
268.6913027652
 30
0.0
 11
215.7204924692
 21
366.3667566367
 31
0.0
  0
LINE
  5
AD
330
1F
100
AcDbEntity
  8
0
  6
Continuous
 62
     7
370
    25
100
AcDbLine
 10
55.7204960455
 20
366.3667566367
 30
0.0
 11
55.7204960455
 21
268.6913027652
 31
0.0
  0
LINE
  5
AE
330
1F
100
AcDbEntity
  8
0
  6
Continuous
 62
     7
370
    25
100
AcDbLine
 10
235.7204957474
 20
538.691313494
 30
0.0
 11
35.7204927672
 21
538.691313494
 31
0.0
  0
LINE
  5
AF
330
1F
100
AcDbEntity
  8
0
  6
Continuous
 62
     7
370
    25
100
AcDbLine
 10
215.7204924692
 20
268.6913027652
 30
0.0
 11
55.7204960455
 21
268.6913027652
 31
0.0
  0
LINE
  5
B0
330
1F
100
AcDbEntity
  8
0
  6
Continuous
 62
     1
370
    25
100
AcDbLine
 10
235.7204957474
 20
427.0158647783
 30
0.0
 11
35.7204927672
 21
427.0158647783
 31
0.0
  0
LINE
  5
B1
330
1F
100
AcDbEntity
  8
0
  6
Continuous
 62
     1
370
    25
100
AcDbLine
 10
235.6178639997
 20
426.3834092059
 30
0.0
 11
35.8231245149
 21
426.3834092059
 31
0.0
  0
LINE
  5
B2
330
1F
100
AcDbEntity
  8
0
  6
Continuous
 62
     1
370
    25
100
AcDbLine
 10
215.8231242169
 20
366.9992103465
 30
0.0
 11
55.6178642977
 21
366.9992103465
 31
0.0
  0
LINE
  5
B3
330
1F
100
AcDbEntity
  8
0
  6
Continuous
 62
     1
370
    25
100
AcDbLine
 10
215.7204924692
 20
366.3667566367
 30
0.0
 11
55.7204960455
 21
366.3667566367
 31
0.0
  0
LINE
  5
B4
330
1F
100
AcDbEntity
  8
0
  6
Continuous
 62
     7
370
    25
100
AcDbLine
 10
507.6632764008
 20
9.8822807009
 30
0.0
 11
619.3387251165
 21
9.8822807009
 31
0.0
  0
LINE
  5
B5
330
1F
100
AcDbEntity
  8
0
  6
Continuous
 62
     7
370
    25
100
AcDbLine
 10
619.3387251165
 20
209.8822836811
 30
0.0
 11
507.6632764008
 21
209.8822836811
 31
0.0
  0
ARC
  5
B6
330
1F
100
AcDbEntity
  8
0
  6
Continuous
 62
     7
370
    25
100
AcDbCircle
 10
507.6632771229
 20
11.882282191
 30
0.0
 40
1.999999999999989
100
AcDbArc
 50
251.5650511771
 51
270.0
  0
ARC
  5
B7
330
1F
100
AcDbEntity
  8
0
  6
Continuous
 62
     7
370
    25
100
AcDbCircle
 10
507.6632771229
 20
207.882282191
 30
0.0
 40
1.999999999999986
100
AcDbArc
 50
90.0
 51
108.4349488229
  0
LINE
  5
B8
330
1F
100
AcDbEntity
  8
0
  6
Continuous
 62
     7
370
    25
100
AcDbLine
 10
507.0308208284
 20
209.7796519334
 30
0.0
 11
447.646621969
 21
189.9849121506
 31
0.0
  0
LINE
  5
B9
330
1F
100
AcDbEntity
  8
0
  6
Continuous
 62
     7
370
    25
100
AcDbLine
 10
447.646621969
 20
29.7796522314
 30
0.0
 11
507.0308208284
 21
9.9849124486
 31
0.0
  0
ARC
  5
BA
330
1F
100
AcDbEntity
  8
0
  6
Continuous
 62
     7
370
    25
100
AcDbCircle
 10
447.0141664822
 20
27.882282191
 30
0.0
 40
2.00000000000002
100
AcDbArc
 50
71.5650511771
 51
90.0
  0
ARC
  5
BB
330
1F
100
AcDbEntity
  8
0
  6
Continuous
 62
     7
370
    25
100
AcDbCircle
 10
447.0141664822
 20
191.882282191
 30
0.0
 40
2.000000000000004
100
AcDbArc
 50
270.0
 51
288.4349488229
  0
LINE
  5
BC
330
1F
100
AcDbEntity
  8
0
  6
Continuous
 62
     7
370
    25
100
AcDbLine
 10
349.3387143877
 20
29.8822839792
 30
0.0
 11
447.0141682592
 21
29.8822839792
 31
0.0
  0
LINE
  5
BD
330
1F
100
AcDbEntity
  8
0
  6
Continuous
 62
     7
370
    25
100
AcDbLine
 10
447.0141682592
 20
189.8822804029
 30
0.0
 11
349.3387143877
 21
189.8822804029
 31
0.0
  0
LINE
  5
BE
330
1F
100
AcDbEntity
  8
0
  6
Continuous
 62
     7
370
    25
100
AcDbLine
 10
619.3387251165
 20
109.882282191
 30
0.0
 11
619.3387251165
 21
209.8822836811
 31
0.0
  0
LINE
  5
BF
330
1F
100
AcDbEntity
  8
0
  6
Continuous
 62
     7
370
    25
100
AcDbLine
 10
619.3387251165
 20
9.8822807009
 30
0.0
 11
619.3387251165
 21
109.882282191
 31
0.0
  0
LINE
  5
C0
330
1F
100
AcDbEntity
  8
0
  6
Continuous
 62
     7
370
    25
100
AcDbLine
 10
349.3387143877
 20
109.882282191
 30
0.0
 11
349.3387143877
 21
189.8822804029
 31
0.0
  0
LINE
  5
C1
330
1F
100
AcDbEntity
  8
0
  6
Continuous
 62
     7
370
    25
100
AcDbLine
 10
349.3387143877
 20
29.8822839792
 30
0.0
 11
349.3387143877
 21
109.882282191
 31
0.0
  0
LINE
  5
C2
330
1F
100
AcDbEntity
  8
0
  6
Continuous
 62
     1
370
    25
100
AcDbLine
 10
507.6632764008
 20
109.882282191
 30
0.0
 11
507.6632764008
 21
209.8822836811
 31
0.0
  0
LINE
  5
C3
330
1F
100
AcDbEntity
  8
0
  6
Continuous
 62
     1
370
    25
100
AcDbLine
 10
507.6632764008
 20
9.8822807009
 30
0.0
 11
507.6632764008
 21
109.882282191
 31
0.0
  0
LINE
  5
C4
330
1F
100
AcDbEntity
  8
0
  6
Continuous
 62
     1
370
    25
100
AcDbLine
 10
507.0308208284
 20
109.882282191
 30
0.0
 11
507.0308208284
 21
209.7796519334
 31
0.0
  0
LINE
  5
C5
330
1F
100
AcDbEntity
  8
0
  6
Continuous
 62
     1
370
    25
100
AcDbLine
 10
507.0308208284
 20
9.9849124486
 30
0.0
 11
507.0308208284
 21
109.882282191
 31
0.0
  0
LINE
  5
C6
330
1F
100
AcDbEntity
  8
0
  6
Continuous
 62
     1
370
    25
100
AcDbLine
 10
447.646621969
 20
109.882282191
 30
0.0
 11
447.646621969
 21
189.9849121506
 31
0.0
  0
LINE
  5
C7
330
1F
100
AcDbEntity
  8
0
  6
Continuous
 62
     1
370
    25
100
AcDbLine
 10
447.646621969
 20
29.7796522314
 30
0.0
 11
447.646621969
 21
109.882282191
 31
0.0
  0
LINE
  5
C8
330
1F
100
AcDbEntity
  8
0
  6
Continuous
 62
     1
370
    25
100
AcDbLine
 10
447.0141682592
 20
109.882282191
 30
0.0
 11
447.0141682592
 21
189.8822804029
 31
0.0
  0
LINE
  5
C9
330
1F
100
AcDbEntity
  8
0
  6
Continuous
 62
     1
370
    25
100
AcDbLine
 10
447.0141682592
 20
29.8822839792
 30
0.0
 11
447.0141682592
 21
109.882282191
 31
0.0
  0
LINE
  5
CA
330
1F
100
AcDbEntity
  8
0
  6
Continuous
 62
     7
370
    25
100
AcDbLine
 10
35.7204927672
 20
-241.8468103909
 30
0.0
 11
35.7204927672
 21
-353.5222591066
 31
0.0
  0
LINE
  5
CB
330
1F
100
AcDbEntity
  8
0
  6
Continuous
 62
     7
370
    25
100
AcDbLine
 10
235.7204957474
 20
-353.5222591066
 30
0.0
 11
235.7204957474
 21
-241.8468103909
 31
0.0
  0
ARC
  5
CC
330
1F
100
AcDbEntity
  8
0
  6
Continuous
 62
     7
370
    25
100
AcDbCircle
 10
37.7204942573
 20
-241.846811113
 30
0.0
 40
1.999999999999986
100
AcDbArc
 50
161.5650511771
 51
180.0
  0
ARC
  5
CD
330
1F
100
AcDbEntity
  8
0
  6
Continuous
 62
     7
370
    25
100
AcDbCircle
 10
233.7204942573
 20
-241.846811113
 30
0.0
 40
1.999999999999972
100
AcDbArc
 50
0.0
 51
18.4349488229
  0
LINE
  5
CE
330
1F
100
AcDbEntity
  8
0
  6
Continuous
 62
     7
370
    25
100
AcDbLine
 10
235.6178639997
 20
-241.2143548185
 30
0.0
 11
215.8231242169
 21
-181.8301559591
 31
0.0
  0
LINE
  5
CF
330
1F
100
AcDbEntity
  8
0
  6
Continuous
 62
     7
370
    25
100
AcDbLine
 10
55.6178642977
 20
-181.8301559591
 30
0.0
 11
35.8231245149
 21
-241.2143548185
 31
0.0
  0
ARC
  5
D0
330
1F
100
AcDbEntity
  8
0
  6
Continuous
 62
     7
370
    25
100
AcDbCircle
 10
53.7204942573
 20
-181.1977004723
 30
0.0
 40
2.000000000000007
100
AcDbArc
 50
341.5650511771
 51
0.0
  0
ARC
  5
D1
330
1F
100
AcDbEntity
  8
0
  6
Continuous
 62
     7
370
    25
100
AcDbCircle
 10
217.7204942573
 20
-181.1977004723
 30
0.0
 40
2.000000000000012
100
AcDbArc
 50
180.0
 51
198.4349488229
  0
LINE
  5
D2
330
1F
100
AcDbEntity
  8
0
  6
Continuous
 62
     7
370
    25
100
AcDbLine
 10
55.7204960455
 20
-83.5222483778
 30
0.0
 11
55.7204960455
 21
-181.1977022493
 31
0.0
  0
LINE
  5
D3
330
1F
100
AcDbEntity
  8
0
  6
Continuous
 62
     7
370
    25
100
AcDbLine
 10
215.7204924692
 20
-181.1977022493
 30
0.0
 11
215.7204924692
 21
-83.5222483778
 31
0.0
  0
LINE
  5
D4
330
1F
100
AcDbEntity
  8
0
  6
Continuous
 62
     7
370
    25
100
AcDbLine
 10
35.7204927672
 20
-353.5222591066
 30
0.0
 11
235.7204957474
 21
-353.5222591066
 31
0.0
  0
LINE
  5
D5
330
1F
100
AcDbEntity
  8
0
  6
Continuous
 62
     7
370
    25
100
AcDbLine
 10
55.7204960455
 20
-83.5222483778
 30
0.0
 11
215.7204924692
 21
-83.5222483778
 31
0.0
  0
LINE
  5
D6
330
1F
100
AcDbEntity
  8
0
  6
Continuous
 62
     1
370
    25
100
AcDbLine
 10
35.7204927672
 20
-241.8468103909
 30
0.0
 11
235.7204957474
 21
-241.8468103909
 31
0.0
  0
LINE
  5
D7
330
1F
100
AcDbEntity
  8
0
  6
Continuous
 62
     1
370
    25
100
AcDbLine
 10
35.8231245149
 20
-241.2143548185
 30
0.0
 11
235.6178639997
 21
-241.2143548185
 31
0.0
  0
LINE
  5
D8
330
1F
100
AcDbEntity
  8
0
  6
Continuous
 62
     1
370
    25
100
AcDbLine
 10
55.6178642977
 20
-181.8301559591
 30
0.0
 11
215.8231242169
 21
-181.8301559591
 31
0.0
  0
LINE
  5
D9
330
1F
100
AcDbEntity
  8
0
  6
Continuous
 62
     1
370
    25
100
AcDbLine
 10
55.7204960455
 20
-181.1977022493
 30
0.0
 11
215.7204924692
 21
-181.1977022493
 31
0.0
  0
LINE
  5
DA
330
1F
100
AcDbEntity
  8
0
  6
Continuous
 62
     7
370
    25
100
AcDbLine
 10
507.5370828714
 20
-111.0500260698
 30
0.0
 11
428.5706157925
 21
-65.4636549584
 31
0.0
  0
LINE
  5
DB
330
1F
100
AcDbEntity
  8
0
  6
Continuous
 62
     7
370
    25
100
AcDbLine
 10
328.5787455236
 20
-238.6734284074
 30
0.0
 11
407.5452126025
 21
-284.2597995189
 31
0.0
  0
SPLINE
  5
DC
330
1F
100
AcDbEntity
  8
0
  6
Continuous
 62
     7
370
    25
100
AcDbSpline
210
0.0
220
0.0
230
1.0
 70
     8
 71
     3
 72
     9
 73
     5
 74
     0
 42
0.000000001
 43
0.00000001
 40
0.0
 40
0.0
 40
0.0
 40
0.0
 40
0.5358970819419924
 40
1.0
 40
1.0
 40
1.0
 40
1.0
 10
514.2180116365154
 20
-116.0983539244767
 30
0.0
 10
513.8570344684424
 20
-115.740045714508
 30
0.0
 10
513.1834402649346
 20
-115.0714318667328
 30
0.0
 10
512.4436071228117
 20
-114.4979498302831
 30
0.0
 10
512.1002484026765
 20
-114.2317951437129
 30
0.0
  0
SPLINE
  5
DD
330
1F
100
AcDbEntity
  8
0
  6
Continuous
 62
     7
370
    25
100
AcDbSpline
210
0.0
220
0.0
230
1.0
 70
     8
 71
     3
 72
     9
 73
     5
 74
     0
 42
0.000000001
 43
0.00000001
 40
0.0
 40
0.0
 40
0.0
 40
0.0
 40
0.5468783524844646
 40
0.9999999999999999
 40
0.9999999999999999
 40
0.9999999999999999
 40
0.9999999999999999
 10
412.5698611003419
 20
-286.616008593946
 30
0.0
 10
413.0878339153077
 20
-286.8233763368174
 30
0.0
 10
414.0349783992912
 20
-287.2025607421415
 30
0.0
 10
415.035040681722
 20
-287.4677474557388
 30
0.0
 10
415.4881905507552
 20
-287.5879092963032
 30
0.0
  0
LINE
  5
DE
330
1F
100
AcDbEntity
  8
0
  6
Continuous
 62
     7
370
    25
100
AcDbLine
 10
421.2260730437
 20
-288.7886455528
 30
0.0
 11
470.5015170225
 21
-295.0224614593
 31
0.0
  0
LINE
  5
DF
330
1F
100
AcDbEntity
  8
0
  6
Continuous
 62
     7
370
    25
100
AcDbLine
 10
548.3405848797
 20
-160.1866284575
 30
0.0
 11
518.3005121169
 21
-120.6325678063
 31
0.0
  0
LINE
  5
E0
330
1F
100
AcDbEntity
  8
0
  6
Continuous
 62
     7
370
    25
100
AcDbLine
 10
609.4902672724
 20
-192.9997342124
 30
0.0
 11
544.9759887922
 21
-155.7564339917
 31
0.0
  0
LINE
  5
E1
330
1F
100
AcDbEntity
  8
0
  6
Continuous
 62
     7
370
    25
100
AcDbLine
 10
464.9824925771
 20
-294.3242478839
 30
0.0
 11
529.4967710573
 21
-331.5675481046
 31
0.0
  0
LWPOLYLINE
  5
E2
330
1F
100
AcDbEntity
  8
0
  6
Continuous
 62
     7
370
    25
100
AcDbPolyline
 90
      122
 70
   128
 43
0.0
 10
307.8640014857
 20
-192.8889478823
 10
307.9593165836
 20
-188.5957650946
 10
308.2449931912
 20
-184.2041141411
 10
308.7202673968
 20
-179.7258307944
 10
309.3838589899
 20
-175.1729865224
 10
310.2339714611
 20
-170.5578611112
 10
311.2683236121
 20
-165.8928879151
 10
312.4841179461
 20
-161.1906477697
 10
313.8780828137
 20
-156.4638172843
 10
315.4464618772
 20
-151.7251338599
 10
317.1850193783
 20
-146.9873789594
 10
319.0890717484
 20
-142.263324878
 10
321.1534876087
 20
-137.565701283
 10
323.3727035753
 20
-132.9071708804
 10
325.7407295272
 20
-128.3003050807
 10
328.2511907537
 20
-123.7575079564
 10
330.8973121488
 20
-119.2910314498
 10
333.6719656269
 20
-114.9129175825
 10
336.5676701222
 20
-110.6349680366
 10
339.5766152969
 20
-106.4687183013
 10
342.690693151
 20
-102.4254011735
 10
345.9015085592
 20
-98.5159102569
 10
349.2004029783
 20
-94.7507862757
 10
352.5784860573
 20
-91.1401805753
 10
356.0266514429
 20
-87.6938277471
 10
359.5356018036
 20
-84.4210190147
 10
363.0958778062
 20
-81.3305733393
 10
366.6978831401
 20
-78.4308290563
 10
370.3319049324
 20
-75.7295955886
 10
373.9881476627
 20
-73.2341582021
 10
377.6567553893
 20
-70.951246924
 10
381.327837597
 20
-68.8870155377
 10
384.9914975141
 20
-67.0470191515
 10
388.6378591133
 20
-65.4362290302
 10
392.2570926301
 20
-64.0589874451
 10
395.8394404105
 20
-62.9190049198
 10
399.3752448992
 20
-62.0193501566
 10
402.854974323
 20
-61.3624534609
 10
406.2692510082
 20
-60.9500782266
 10
409.6088645513
 20
-60.7833498352
 10
412.8648192342
 20
-60.8627100319
 10
416.0283300733
 20
-61.1879435419
 10
419.0908755026
 20
-61.7581719912
 10
422.0441947398
 20
-62.5718615118
 10
424.8803272989
 20
-63.6268242652
 10
427.5916287953
 20
-64.9202032357
 10
430.1707893848
 20
-66.4485224218
 10
432.6108548376
 20
-68.207662504
 10
434.9052502452
 20
-70.1928684514
 10
437.0477852892
 20
-72.3988012336
 10
439.0326911198
 20
-74.8195074059
 10
440.8546098189
 20
-77.4484647356
 10
442.5086365469
 20
-80.2785852484
 10
443.990303738
 20
-83.3022395615
 10
445.2956285149
 20
-86.5112690551
 10
446.421081079
 20
-89.8970360605
 10
447.3636321257
 20
-93.4504040923
 10
448.1207370389
 20
-97.161798684
 10
448.6903622332
 20
-101.0212089112
 10
449.0709693487
 20
-105.0182337786
 10
449.2615257875
 20
-109.1421008522
 10
449.2615257875
 20
-113.3816883149
 10
449.0709693487
 20
-117.7255671697
 10
448.6903622332
 20
-122.1620316589
 10
448.1207370389
 20
-126.6791171364
 10
447.3636321257
 20
-131.2646464544
 10
446.421081079
 20
-135.9062607608
 10
445.2956285149
 20
-140.5914476379
 10
443.990303738
 20
-145.3075730394
 10
442.5086365469
 20
-150.041923878
 10
440.8546098189
 20
-154.781743002
 10
439.0326911198
 20
-159.5142428865
 10
437.0477852892
 20
-164.22667255
 10
434.9052502452
 20
-168.9063236395
 10
432.6108548376
 20
-173.5405821379
 10
430.1707893848
 20
-178.1169618252
 10
427.5916287953
 20
-182.623116443
 10
424.8803272989
 20
-187.0468974887
 10
422.0441947398
 20
-191.3763891945
 10
419.0908755026
 20
-195.5999085261
 10
416.0283300733
 20
-199.7060766636
 10
412.8648192342
 20
-203.6838220424
 10
409.6088645513
 20
-207.5224274982
 10
406.2692510082
 20
-211.2115348299
 10
402.854974323
 20
-214.7411995477
 10
399.3752448992
 20
-218.1019129275
 10
395.8394404105
 20
-221.2846111316
 10
392.2570926301
 20
-224.2807193144
 10
388.6378591133
 20
-227.0821558021
 10
384.9914975141
 20
-229.6813651709
 10
381.327837597
 20
-232.0713404875
 10
377.6567553893
 20
-234.2456503982
 10
373.9881476627
 20
-236.1984234422
 10
370.3319049324
 20
-237.9243940569
 10
366.6978831401
 20
-239.4189128415
 10
363.0958778062
 20
-240.6779553948
 10
359.5356018036
 20
-241.6981168952
 10
356.0266514429
 20
-242.476656014
 10
352.5784860573
 20
-243.0114701985
 10
349.2004029783
 20
-243.3011162019
 10
345.9015085592
 20
-243.3448146439
 10
342.690693151
 20
-243.1424522892
 10
339.5766152969
 20
-242.6945729208
 10
336.5676701222
 20
-242.0023773368
 10
333.6719656269
 20
-241.0677370368
 10
330.8973121488
 20
-239.8931698858
 10
328.2511907537
 20
-238.4818401115
 10
325.7407295272
 20
-236.8375598226
 10
323.3727035753
 20
-234.9647585908
 10
321.1534876087
 20
-232.8684804041
 10
319.0890717484
 20
-230.5543806267
 10
317.1850193783
 20
-228.0286986181
 10
315.4464618772
 20
-225.2982394819
 10
313.8780828137
 20
-222.37036798
 10
312.4841179461
 20
-219.252975073
 10
311.2683236121
 20
-215.9544611864
 10
310.2339714611
 20
-212.4837255639
 10
309.3838589899
 20
-208.8501191197
 10
308.7202673968
 20
-205.0634413927
 10
308.2449931912
 20
-201.1338979636
 10
307.9593165836
 20
-197.0720822004
 10
307.8640014857
 20
-192.8889478823
  0
LWPOLYLINE
  5
E3
330
1F
100
AcDbEntity
  8
0
  6
Continuous
 62
     7
370
    25
100
AcDbPolyline
 90
      115
 70
   128
 43
0.0
 10
316.2785723757
 20
-188.031319505
 10
316.3731709772
 20
-184.0138470341
 10
316.6566664854
 20
-179.8993617859
 10
317.1282106949
 20
-175.7003520023
 10
317.7863653445
 20
-171.4295735529
 10
318.629128459
 20
-167.0999982259
 10
319.6539501539
 20
-162.7247696227
 10
320.8577062942
 20
-158.3171818622
 10
322.2367511775
 20
-153.8906141867
 10
323.7868911923
 20
-149.4585142283
 10
325.5034164283
 20
-145.0343447801
 10
327.3811217498
 20
-140.6315320865
 10
329.4142962587
 20
-136.2634567167
 10
331.5967759784
 20
-131.9433775232
 10
333.9219227803
 20
-127.6844194728
 10
336.3826744332
 20
-123.4995143345
 10
338.9715656764
 20
-119.4013733057
 10
341.6807308543
 20
-115.4024459468
 10
344.5019381607
 20
-111.5148639102
 10
347.4266265169
 20
-107.7504500697
 10
350.4459108404
 20
-104.1206242233
 10
353.5506189233
 20
-100.6364122223
 10
356.7313256765
 20
-97.3084018675
 10
359.9783702523
 20
-94.146696523
 10
363.281890288
 20
-91.1608953467
 10
366.6318548336
 20
-88.3600681989
 10
370.018088718
 20
-85.7527294081
 10
373.4303087687
 20
-83.3467803593
 10
376.8581524586
 20
-81.1495416269
 10
380.2912088575
 20
-79.1676803529
 10
383.7190525474
 20
-77.4072150031
 10
387.1312725981
 20
-75.8734986394
 10
390.5175064825
 20
-74.5711750069
 10
393.8674710281
 20
-73.5042154184
 10
397.1709910638
 20
-72.6758535482
 10
400.4180356396
 20
-72.0886010244
 10
403.5987423928
 20
-71.7442455304
 10
406.7034504757
 20
-71.6438378797
 10
409.7227347992
 20
-71.7876722476
 10
412.6474231554
 20
-72.1753127886
 10
415.4686304618
 20
-72.8055982028
 10
418.1777956397
 20
-73.6765900272
 10
420.766686883
 20
-74.7856608508
 10
423.2274385358
 20
-76.1294426057
 10
425.5525853377
 20
-77.703843301
 10
427.7350650575
 20
-79.5040850463
 10
429.7682395663
 20
-81.5247070952
 10
431.6459448878
 20
-83.7595673708
 10
433.3624701238
 20
-86.2018789665
 10
434.9126101386
 20
-88.8442253598
 10
436.2916550219
 20
-91.6785817043
 10
437.4954111622
 20
-94.6963422084
 10
438.5202328572
 20
-97.8883368685
 10
439.3629959716
 20
-101.2448786151
 10
440.0211506213
 20
-104.7557678807
 10
440.4926948308
 20
-108.4103443086
 10
440.7761903389
 20
-112.1975126103
 10
440.8707889404
 20
-116.1057638607
 10
440.7761903389
 20
-120.1232363317
 10
440.4926948308
 20
-124.2377215799
 10
440.0211506213
 20
-128.4367313635
 10
439.3629959716
 20
-132.7075098129
 10
438.5202328572
 20
-137.0370851399
 10
437.4954111622
 20
-141.4123137431
 10
436.2916550219
 20
-145.8199015035
 10
434.9126101386
 20
-150.2464691791
 10
433.3624701238
 20
-154.6785691375
 10
431.6459448878
 20
-159.1027385857
 10
429.7682395663
 20
-163.5055512793
 10
427.7350650575
 20
-167.8736266491
 10
425.5525853377
 20
-172.1937058425
 10
423.2274385358
 20
-176.452663893
 10
420.766686883
 20
-180.6375690313
 10
418.1777956397
 20
-184.7357100601
 10
415.4686304618
 20
-188.734637419
 10
412.6474231554
 20
-192.6222194556
 10
409.7227347992
 20
-196.3866332961
 10
406.7034504757
 20
-200.0164591424
 10
403.5987423928
 20
-203.5006711435
 10
400.4180356396
 20
-206.8286814982
 10
397.1709910638
 20
-209.9903868428
 10
393.8674710281
 20
-212.976188019
 10
390.5175064825
 20
-215.7770151668
 10
387.1312725981
 20
-218.3843539577
 10
383.7190525474
 20
-220.7903030065
 10
380.2912088575
 20
-222.9875417388
 10
376.8581524586
 20
-224.9694030128
 10
373.4303087687
 20
-226.7298683627
 10
370.018088718
 20
-228.2635847264
 10
366.6318548336
 20
-229.5659083589
 10
363.281890288
 20
-230.6328679473
 10
359.9783702523
 20
-231.4612298175
 10
356.7313256765
 20
-232.0484823413
 10
353.5506189233
 20
-232.3928378354
 10
350.4459108404
 20
-232.4932454861
 10
347.4266265169
 20
-232.3494111182
 10
344.5019381607
 20
-231.9617705771
 10
341.6807308543
 20
-231.331485163
 10
338.9715656764
 20
-230.4604933385
 10
336.3826744332
 20
-229.351422515
 10
333.9219227803
 20
-228.0076407601
 10
331.5967759784
 20
-226.4332400647
 10
329.4142962587
 20
-224.6329983194
 10
327.3811217498
 20
-222.6123762706
 10
325.5034164283
 20
-220.377515995
 10
323.7868911923
 20
-217.9352043993
 10
322.2367511775
 20
-215.292858006
 10
320.8577062942
 20
-212.4585016615
 10
319.6539501539
 20
-209.4407411574
 10
318.629128459
 20
-206.2487464973
 10
317.7863653445
 20
-202.8922047507
 10
317.1282106949
 20
-199.3813154851
 10
316.6566664854
 20
-195.7267390572
 10
316.3731709772
 20
-191.9395707555
 10
316.2785723757
 20
-188.031319505
  0
ARC
  5
E4
330
1F
100
AcDbEntity
  8
0
  6
Continuous
 62
     7
370
    25
100
AcDbCircle
 10
490.7082275748
 20
-140.1761423881
 30
0.0
 40
33.63838614403765
100
AcDbArc
 50
50.8569992532
 51
59.9809946632
  0
LWPOLYLINE
  5
E5
330
1F
100
AcDbEntity
  8
0
  6
Continuous
 62
     7
370
    25
100
AcDbPolyline
 90
        3
 70
   128
 43
0.0
 10
412.3665328493
 20
-286.5516513255
 10
409.8637792278
 20
-285.4795409973
 10
407.5452126025
 20
-284.2597995189
  0
ARC
  5
E6
330
1F
100
AcDbEntity
  8
0
  6
Continuous
 62
     7
370
    25
100
AcDbCircle
 10
486.2926487145
 20
-145.124523879
 30
0.0
 40
40.29316100189963
100
AcDbArc
 50
26.1883275197
 51
45.820995183
  0
ARC
  5
E7
330
1F
100
AcDbEntity
  8
0
  6
Continuous
 62
     7
370
    25
100
AcDbCircle
 10
426.3947051029
 20
-249.0938788049
 30
0.0
 40
40.02470563837917
100
AcDbArc
 50
254.4570153285
 51
273.8817540215
  0
ARC
  5
E8
330
1F
100
AcDbEntity
  8
0
  6
Continuous
 62
     7
370
    25
100
AcDbCircle
 10
521.6798687176
 20
-180.3603306186
 30
0.0
 40
33.43309804905375
100
AcDbArc
 50
28.9152075948
 51
37.1141618352
  0
ARC
  5
E9
330
1F
100
AcDbEntity
  8
0
  6
Continuous
 62
     7
370
    25
100
AcDbCircle
 10
474.6371343499
 20
-261.8688178725
 30
0.0
 40
33.41058834792939
100
AcDbArc
 50
262.8895976804
 51
270.9878667181
  0
LWPOLYLINE
  5
EA
330
1F
100
AcDbEntity
  8
0
  6
Continuous
 62
     7
370
    25
100
AcDbPolyline
 90
       56
 70
   128
 43
0.0
 10
609.4902672724
 20
-192.9997342124
 10
610.6399858846
 20
-193.70274707
 10
612.827536397
 20
-195.2784595806
 10
614.8684580235
 20
-197.0808979482
 10
616.7558465834
 20
-199.1039610917
 10
618.4833141949
 20
-201.3408027247
 10
620.0450129829
 20
-203.7838572136
 10
621.4356640546
 20
-206.4248563106
 10
622.650562768
 20
-209.2548610933
 10
623.6855892687
 20
-212.2643015102
 10
624.5372506365
 20
-215.4429900726
 10
625.2026598125
 20
-218.7801728039
 10
625.6795672084
 20
-222.26455814
 10
625.9663554391
 20
-225.884356473
 10
626.0620603954
 20
-229.6273174155
 10
625.9663554391
 20
-233.4807769486
 10
625.6795672084
 20
-237.4316939246
 10
625.2026598125
 20
-241.4667048197
 10
624.5372506365
 20
-245.5721526325
 10
623.6855892687
 20
-249.73414848
 10
622.650562768
 20
-253.9386050579
 10
621.4356640546
 20
-258.171302038
 10
620.0450129829
 20
-262.4179126859
 10
618.4833141949
 20
-266.6640662155
 10
616.7558465834
 20
-270.8953994988
 10
614.8684580235
 20
-275.0975950894
 10
612.827536397
 20
-279.2564314096
 10
610.6399858846
 20
-283.357835981
 10
608.3132085264
 20
-287.3879325714
 10
605.8550778807
 20
-291.333083778
 10
603.2739100475
 20
-295.1799412156
 10
600.5784399611
 20
-298.9154896209
 10
597.7777897801
 20
-302.527086394
 10
594.8814346428
 20
-306.0025087433
 10
591.8991736916
 20
-309.3300038739
 10
588.8410997795
 20
-312.4983125588
 10
585.7175599579
 20
-315.4967041166
 10
582.539122549
 20
-318.3150440895
 10
579.3165435602
 20
-320.9437892973
 10
576.0607258545
 20
-323.37404791
 10
572.7826875401
 20
-325.5975916122
 10
569.4935191649
 20
-327.6069046493
 10
566.2043507897
 20
-329.3951845842
 10
562.9263124752
 20
-330.9563833593
 10
559.6704947695
 20
-332.2852118552
 10
556.4479157808
 20
-333.3771771503
 10
553.2694783718
 20
-334.2285828969
 10
550.1459385502
 20
-334.8365536536
 10
547.0878646381
 20
-335.1990219529
 10
544.1056036869
 20
-335.3147720251
 10
541.2092485496
 20
-335.183410137
 10
538.4085983686
 20
-334.8053752346
 10
535.7131282822
 20
-334.1819503476
 10
533.131960449
 20
-333.3152458559
 10
530.6738298033
 20
-332.2081918822
 10
529.4967710573
 20
-331.5675481046
  0
LWPOLYLINE
  5
EB
330
1F
100
AcDbEntity
  8
0
  6
Continuous
 62
     1
370
    25
100
AcDbPolyline
 90
       59
 70
   128
 43
0.0
 10
511.9427298247
 20
-114.0871229244
 10
513.8717173241
 20
-115.7792395629
 10
516.0142523681
 20
-117.9851723451
 10
517.9991581988
 20
-120.4058785173
 10
519.8210768978
 20
-123.034835847
 10
521.4751036259
 20
-125.8649563599
 10
522.9567708169
 20
-128.8886106729
 10
524.2620955938
 20
-132.0976401665
 10
525.3875481579
 20
-135.4834071719
 10
526.3300992046
 20
-139.0367752038
 10
527.0872041178
 20
-142.7481697954
 10
527.6568293122
 20
-146.6075800226
 10
528.0374364276
 20
-150.6046048901
 10
528.2279928665
 20
-154.7284719637
 10
528.2279928665
 20
-158.9680594263
 10
528.0374364276
 20
-163.3119382811
 10
527.6568293122
 20
-167.7484027703
 10
527.0872041178
 20
-172.2654882479
 10
526.3300992046
 20
-176.8510175659
 10
525.3875481579
 20
-181.4926318723
 10
524.2620955938
 20
-186.1778187493
 10
522.9567708169
 20
-190.8939441509
 10
521.4751036259
 20
-195.6282949895
 10
519.8210768978
 20
-200.3681141134
 10
517.9991581988
 20
-205.1006139979
 10
516.0142523681
 20
-209.8130436615
 10
513.8717173241
 20
-214.492694751
 10
511.5773219165
 20
-219.1269532493
 10
509.1372564637
 20
-223.7033329367
 10
506.5580958742
 20
-228.2094875545
 10
503.8467943778
 20
-232.6332686001
 10
501.0106618187
 20
-236.962760306
 10
498.0573425815
 20
-241.1862796376
 10
494.9947971522
 20
-245.292447775
 10
491.8312863131
 20
-249.2701931539
 10
488.5753316302
 20
-253.1087986097
 10
485.2357180871
 20
-256.7979059413
 10
481.8214414019
 20
-260.3275706592
 10
478.3417119781
 20
-263.688284039
 10
474.8059074894
 20
-266.8709822431
 10
471.223559709
 20
-269.8670904258
 10
467.6043261922
 20
-272.6685269136
 10
463.957964593
 20
-275.2677362824
 10
460.2943046759
 20
-277.6577115989
 10
456.6232224683
 20
-279.8320215097
 10
452.9546147416
 20
-281.7847945537
 10
449.2983720113
 20
-283.5107651684
 10
445.6643502191
 20
-285.0052839529
 10
442.0623448852
 20
-286.2643265062
 10
438.5020688825
 20
-287.2844880067
 10
434.9931185218
 20
-288.0630271255
 10
431.5449531362
 20
-288.5978413099
 10
428.1668700572
 20
-288.8874873134
 10
424.8679756381
 20
-288.9311857554
 10
421.6571602299
 20
-288.7288234006
 10
418.5430823758
 20
-288.2809440322
 10
415.5341372011
 20
-287.5887484483
 10
412.6384327058
 20
-286.6541081483
 10
412.3665328493
 20
-286.5516513255
  0
ARC
  5
EC
330
1F
100
AcDbEntity
  8
0
  6
Continuous
 62
     1
370
    25
100
AcDbCircle
 10
539.4360792839
 20
-244.9318570147
 30
0.0
 40
145.8745711184879
100
AcDbArc
 50
134.1842976072
 51
165.8210758196
  0
LWPOLYLINE
  5
ED
330
1F
100
AcDbEntity
  8
0
  6
Continuous
 62
     1
370
    25
100
AcDbPolyline
 90
       48
 70
   128
 43
0.0
 10
522.4496480818
 20
-127.3422231203
 10
523.3368497797
 20
-129.2173553852
 10
524.6408311258
 20
-132.4230965112
 10
525.7651246516
 20
-135.8053880924
 10
526.7067115891
 20
-139.3551073329
 10
527.463042054
 20
-143.0626919328
 10
528.0320824608
 20
-146.9181416144
 10
528.4122944496
 20
-150.9110667893
 10
528.6026612276
 20
-155.0306980668
 10
528.6026612276
 20
-159.2659341608
 10
528.4122944496
 20
-163.6053582418
 10
528.0320824608
 20
-168.0372668349
 10
527.463042054
 20
-172.5497165855
 10
526.7067115891
 20
-177.1305417527
 10
525.7651246516
 20
-181.7673941309
 10
524.6408311258
 20
-186.4477673866
 10
523.3368497797
 20
-191.1590533284
 10
521.8566998752
 20
-195.8885464724
 10
520.2043748262
 20
-200.6234957517
 10
518.3843211251
 20
-205.3511410161
 10
516.4014541483
 20
-210.058734327
 10
514.2611160087
 20
-214.7335855809
 10
511.9690755563
 20
-219.3630868444
 10
509.5315125727
 20
-223.9347671058
 10
506.9550019662
 20
-228.4362953161
 10
504.2464821619
 20
-232.8555381802
 10
501.4132603695
 20
-237.180587535
 10
498.4629730712
 20
-241.3997709916
 10
495.4035702163
 20
-245.5017279805
 10
492.2433046845
 20
-249.4753914991
 10
488.9906954077
 20
-253.3100519873
 10
485.6545062961
 20
-256.9953755769
 10
482.2437357018
 20
-260.5214223413
 10
478.7675769063
 20
-263.878687357
 10
475.2354009978
 20
-267.0581166716
 10
471.65673053
 20
-270.0511468456
 10
468.0412118628
 20
-272.8497026682
 10
464.398592772
 20
-275.4462465855
 10
460.7386926501
 20
-277.8337776519
 10
457.0713782226
 20
-280.0058516324
 10
453.4065356419
 20
-281.956615364
 10
449.7540452982
 20
-283.6808212964
 10
446.1237521849
 20
-285.1738080981
 10
442.525445237
 20
-286.431549086
 10
438.9688228393
 20
-287.4506660532
 10
435.4634733999
 20
-288.2284100657
 10
432.0188483496
 20
-288.7626709654
 10
429.1042805054
 20
-289.026763281
  0
LWPOLYLINE
  5
EE
330
1F
100
AcDbEntity
  8
0
  6
Continuous
 62
     1
370
    25
100
AcDbPolyline
 90
       44
 70
   128
 43
0.0
 10
550.9450704568
 20
-164.1949350986
 10
551.9881153954
 20
-166.223506896
 10
553.2045682739
 20
-169.0571437953
 10
554.2409276686
 20
-172.070442926
 10
555.0936795862
 20
-175.2532107137
 10
555.7599422358
 20
-178.5946749312
 10
556.2374607611
 20
-182.0835303255
 10
556.5246177767
 20
-185.7079724597
 10
556.6204439051
 20
-189.455736117
 10
556.5246177767
 20
-193.3141382672
 10
556.2374607611
 20
-197.2701248345
 10
555.7599422358
 20
-201.3103113827
 10
555.0936795862
 20
-205.4210260814
 10
554.2409276686
 20
-209.5883602761
 10
553.2045682739
 20
-213.7982144945
 10
551.9881153954
 20
-218.036337992
 10
550.595678351
 20
-222.2883994703
 10
549.0319775877
 20
-226.5399977263
 10
547.3022919983
 20
-230.7767635484
 10
545.412485263
 20
-234.9843460312
 10
543.3689426293
 20
-239.148519034
 10
541.1785840831
 20
-243.2551857452
 10
538.8488222013
 20
-247.2904516822
 10
536.3875384445
 20
-251.2406657549
 10
533.8030594495
 20
-255.0924613278
 10
531.1041333215
 20
-258.8327972833
 10
528.2998874875
 20
-262.4490310216
 10
525.3998181592
 20
-265.9289093349
 10
522.4137297473
 20
-269.2606763869
 10
519.3517335441
 20
-272.4330440547
 10
516.2241858206
 20
-275.4352885019
 10
513.0416707041
 20
-278.2572418118
 10
509.8149573729
 20
-280.8893592846
 10
506.554963178
 20
-283.3227346428
 10
503.272719069
 20
-285.5491321578
 10
499.9793310698
 20
-287.561021057
 10
496.6859430707
 20
-289.3515970038
 10
493.4036989617
 20
-290.9147978732
 10
490.1437047668
 20
-292.2453316955
 10
486.9169914356
 20
-293.3386981357
 10
483.7344763191
 20
-294.1911985663
 10
480.6069285956
 20
-294.7999438586
 10
477.5449323924
 20
-295.1628817559
 10
475.2131553644
 20
-295.2744403566
  0
ARC
  5
EF
330
1F
100
AcDbEntity
  8
0
  6
Continuous
 62
     1
370
    25
100
AcDbCircle
 10
541.303809396
 20
-246.0100645924
 30
0.0
 40
146.5709701359341
100
AcDbArc
 50
135.312564273
 51
164.6928138424
  0
LWPOLYLINE
  5
F0
330
1F
100
AcDbEntity
  8
0
  6
Continuous
 62
     1
370
    25
100
AcDbPolyline
 90
       50
 70
   128
 43
0.0
 10
547.1295663105
 20
-158.5920702553
 10
547.6888707953
 20
-159.2324446584
 10
549.4163384069
 20
-161.4692862914
 10
550.9780371949
 20
-163.9123407803
 10
552.3686882666
 20
-166.5533398772
 10
553.58358698
 20
-169.38334466
 10
554.6186134807
 20
-172.3927850769
 10
555.4702748485
 20
-175.5714736393
 10
556.1356840245
 20
-178.9086563706
 10
556.6125914204
 20
-182.3930417067
 10
556.8993796511
 20
-186.0128400396
 10
556.9950846074
 20
-189.7558009822
 10
556.8993796511
 20
-193.6092605152
 10
556.6125914204
 20
-197.5601774913
 10
556.1356840245
 20
-201.5951883863
 10
555.4702748485
 20
-205.7006361992
 10
554.6186134807
 20
-209.8626320467
 10
553.58358698
 20
-214.0670886246
 10
552.3686882666
 20
-218.2997856047
 10
550.9780371949
 20
-222.5463962526
 10
549.4163384069
 20
-226.7925497821
 10
547.6888707953
 20
-231.0238830655
 10
545.8014822355
 20
-235.226078656
 10
543.760560609
 20
-239.3849149763
 10
541.5730100966
 20
-243.4863195477
 10
539.2462327384
 20
-247.5164161381
 10
536.7881020927
 20
-251.4615673447
 10
534.2069342595
 20
-255.3084247823
 10
531.5114641731
 20
-259.0439731876
 10
528.7108139921
 20
-262.6555699607
 10
525.8144588548
 20
-266.13099231
 10
522.8321979036
 20
-269.4584874406
 10
519.7741239915
 20
-272.6267961255
 10
516.6505841699
 20
-275.6251876832
 10
513.472146761
 20
-278.4435276562
 10
510.2495677722
 20
-281.072272864
 10
506.9937500665
 20
-283.5025314767
 10
503.7157117521
 20
-285.7260751789
 10
500.4265433769
 20
-287.735388216
 10
497.1373750016
 20
-289.5236681509
 10
493.8593366872
 20
-291.084866926
 10
490.6035189815
 20
-292.4136954219
 10
487.3809399928
 20
-293.5056607169
 10
484.2025025838
 20
-294.3570664636
 10
481.0789627622
 20
-294.9650372203
 10
478.0208888501
 20
-295.3275055196
 10
475.0386278989
 20
-295.4432555918
 10
472.1422727616
 20
-295.3118937036
 10
469.3416225806
 20
-294.9338588013
 10
468.5150570268
 20
-294.7711532109
  0
ENDSEC
  0
SECTION
  2
OBJECTS
  0
DICTIONARY
  5
C
330
0
100
AcDbDictionary
281
     1
  3
ACAD_GROUP
350
D
  3
ACAD_LAYOUT
350
1A
  3
ACAD_MLINESTYLE
350
17
  3
ACAD_PLOTSETTINGS
350
19
  3
ACAD_PLOTSTYLENAME
350
E
  3
ACAD_SCALELIST
350
47
  0
DICTIONARY
  5
D
102
{ACAD_REACTORS
330
C
102
}
330
C
100
AcDbDictionary
281
     1
  0
DICTIONARY
  5
1A
102
{ACAD_REACTORS
330
C
102
}
330
C
100
AcDbDictionary
281
     1
  3
Layout1
350
1E
  3
Layout2
350
26
  3
Model
350
22
  0
DICTIONARY
  5
17
102
{ACAD_REACTORS
330
C
102
}
330
C
100
AcDbDictionary
281
     1
  3
Standard
350
18
  0
DICTIONARY
  5
19
102
{ACAD_REACTORS
330
C
102
}
330
C
100
AcDbDictionary
281
     1
  0
ACDBDICTIONARYWDFLT
  5
E
102
{ACAD_REACTORS
330
C
102
}
330
C
100
AcDbDictionary
281
     1
  3
Normal
350
F
100
AcDbDictionaryWithDefault
340
F
  0
DICTIONARY
  5
47
102
{ACAD_REACTORS
330
C
102
}
330
C
100
AcDbDictionary
281
     1
  3
A0
350
48
  3
A1
350
49
  3
A2
350
4A
  3
A3
350
4B
  3
A4
350
4C
  3
A5
350
4D
  3
A6
350
4E
  3
A7
350
4F
  3
A8
350
50
  3
A9
350
51
  3
B0
350
52
  3
B1
350
53
  3
B2
350
54
  3
B3
350
55
  3
B4
350
56
  3
B5
350
57
  3
B6
350
58
  3
B7
350
59
  3
B8
350
5A
  3
B9
350
5B
  3
C0
350
5C
  3
C1
350
5D
  3
C2
350
5E
  3
C3
350
5F
  3
C4
350
60
  3
C5
350
61
  3
C6
350
62
  3
C7
350
63
  3
C8
350
64
  3
C9
350
65
  3
D0
350
66
  3
D1
350
67
  3
D2
350
68
  0
LAYOUT
  5
1E
102
{ACAD_REACTORS
330
1A
102
}
330
1A
100
AcDbPlotSettings
  1

  2
none_device
  4

  6

 40
0.0
 41
0.0
 42
0.0
 43
0.0
 44
0.0
 45
0.0
 46
0.0
 47
0.0
 48
0.0
 49
0.0
140
0.0
141
0.0
142
1.0
143
1.0
 70
   688
 72
     1
 73
     0
 74
     5
  7

 75
    16
147
1.0
148
0.0
149
0.0
100
AcDbLayout
  1
Layout1
 70
     1
 71
     1
 10
0.0
 20
0.0
 11
420.0
 21
297.0
 12
0.0
 22
0.0
 32
0.0
 14
1.0000000000E+20
 24
1.0000000000E+20
 34
1.0000000000E+20
 15
-1.0000000000E+20
 25
-1.0000000000E+20
 35
-1.0000000000E+20
146
0.0
 13
0.0
 23
0.0
 33
0.0
 16
1.0
 26
0.0
 36
0.0
 17
0.0
 27
1.0
 37
0.0
 76
     0
330
1B
  0
LAYOUT
  5
26
102
{ACAD_REACTORS
330
1A
102
}
330
1A
100
AcDbPlotSettings
  1

  2
none_device
  4

  6

 40
0.0
 41
0.0
 42
0.0
 43
0.0
 44
0.0
 45
0.0
 46
0.0
 47
0.0
 48
0.0
 49
0.0
140
0.0
141
0.0
142
1.0
143
1.0
 70
   688
 72
     1
 73
     0
 74
     5
  7

 75
    16
147
1.0
148
0.0
149
0.0
100
AcDbLayout
  1
Layout2
 70
     1
 71
     2
 10
0.0
 20
0.0
 11
0.0
 21
0.0
 12
0.0
 22
0.0
 32
0.0
 14
0.0
 24
0.0
 34
0.0
 15
0.0
 25
0.0
 35
0.0
146
0.0
 13
0.0
 23
0.0
 33
0.0
 16
1.0
 26
0.0
 36
0.0
 17
0.0
 27
1.0
 37
0.0
 76
     0
330
23
  0
LAYOUT
  5
22
102
{ACAD_REACTORS
330
1A
102
}
330
1A
100
AcDbPlotSettings
  1

  2
none_device
  4
Letter_(8.50_x_11.00_Inches)
  6

 40
6.35
 41
6.35
 42
6.35000508
 43
6.35000508
 44
215.9
 45
279.4
 46
0.0
 47
0.0
 48
0.0
 49
0.0
140
0.0
141
0.0
142
1.0
143
1.0
 70
  1712
 72
     1
 73
     0
 74
     0
  7

 75
     0
147
1.0
148
0.0
149
0.0
100
AcDbLayout
  1
Model
 70
     1
 71
     0
 10
0.0
 20
0.0
 11
279.4
 21
215.9
 12
0.0
 22
0.0
 32
0.0
 14
0.0
 24
0.0
 34
0.0
 15
279.4
 25
215.9
 35
0.0
146
0.0
 13
0.0
 23
0.0
 33
0.0
 16
1.0
 26
0.0
 36
0.0
 17
0.0
 27
1.0
 37
0.0
 76
     0
330
1F
331
29
  0
MLINESTYLE
  5
18
102
{ACAD_REACTORS
330
17
102
}
330
17
100
AcDbMlineStyle
  2
Standard
 70
     0
  3

 62
   256
 51
90.0
 52
90.0
 71
     2
 49
0.5
 62
   256
  6
BYLAYER
 49
-0.5
 62
   256
  6
BYLAYER
  0
ACDBPLACEHOLDER
  5
F
102
{ACAD_REACTORS
330
E
102
}
330
E
  0
SCALE
  5
48
102
{ACAD_REACTORS
330
47
102
}
330
47
100
AcDbScale
 70
     0
300
1:1
140
1.0
141
1.0
290
     1
  0
SCALE
  5
49
102
{ACAD_REACTORS
330
47
102
}
330
47
100
AcDbScale
 70
     0
300
1:2
140
1.0
141
2.0
290
     0
  0
SCALE
  5
4A
102
{ACAD_REACTORS
330
47
102
}
330
47
100
AcDbScale
 70
     0
300
1:4
140
1.0
141
4.0
290
     0
  0
SCALE
  5
4B
102
{ACAD_REACTORS
330
47
102
}
330
47
100
AcDbScale
 70
     0
300
1:5
140
1.0
141
5.0
290
     0
  0
SCALE
  5
4C
102
{ACAD_REACTORS
330
47
102
}
330
47
100
AcDbScale
 70
     0
300
1:8
140
1.0
141
8.0
290
     0
  0
SCALE
  5
4D
102
{ACAD_REACTORS
330
47
102
}
330
47
100
AcDbScale
 70
     0
300
1:10
140
1.0
141
10.0
290
     0
  0
SCALE
  5
4E
102
{ACAD_REACTORS
330
47
102
}
330
47
100
AcDbScale
 70
     0
300
1:16
140
1.0
141
16.0
290
     0
  0
SCALE
  5
4F
102
{ACAD_REACTORS
330
47
102
}
330
47
100
AcDbScale
 70
     0
300
1:20
140
1.0
141
20.0
290
     0
  0
SCALE
  5
50
102
{ACAD_REACTORS
330
47
102
}
330
47
100
AcDbScale
 70
     0
300
1:30
140
1.0
141
30.0
290
     0
  0
SCALE
  5
51
102
{ACAD_REACTORS
330
47
102
}
330
47
100
AcDbScale
 70
     0
300
1:40
140
1.0
141
40.0
290
     0
  0
SCALE
  5
52
102
{ACAD_REACTORS
330
47
102
}
330
47
100
AcDbScale
 70
     0
300
1:50
140
1.0
141
50.0
290
     0
  0
SCALE
  5
53
102
{ACAD_REACTORS
330
47
102
}
330
47
100
AcDbScale
 70
     0
300
1:100
140
1.0
141
100.0
290
     0
  0
SCALE
  5
54
102
{ACAD_REACTORS
330
47
102
}
330
47
100
AcDbScale
 70
     0
300
2:1
140
2.0
141
1.0
290
     0
  0
SCALE
  5
55
102
{ACAD_REACTORS
330
47
102
}
330
47
100
AcDbScale
 70
     0
300
4:1
140
4.0
141
1.0
290
     0
  0
SCALE
  5
56
102
{ACAD_REACTORS
330
47
102
}
330
47
100
AcDbScale
 70
     0
300
8:1
140
8.0
141
1.0
290
     0
  0
SCALE
  5
57
102
{ACAD_REACTORS
330
47
102
}
330
47
100
AcDbScale
 70
     0
300
10:1
140
10.0
141
1.0
290
     0
  0
SCALE
  5
58
102
{ACAD_REACTORS
330
47
102
}
330
47
100
AcDbScale
 70
     0
300
100:1
140
100.0
141
1.0
290
     0
  0
SCALE
  5
59
102
{ACAD_REACTORS
330
47
102
}
330
47
100
AcDbScale
 70
     0
300
1/128" = 1'-0"
140
0.0078125
141
12.0
290
     0
  0
SCALE
  5
5A
102
{ACAD_REACTORS
330
47
102
}
330
47
100
AcDbScale
 70
     0
300
1/64" = 1'-0"
140
0.015625
141
12.0
290
     0
  0
SCALE
  5
5B
102
{ACAD_REACTORS
330
47
102
}
330
47
100
AcDbScale
 70
     0
300
1/32" = 1'-0"
140
0.03125
141
12.0
290
     0
  0
SCALE
  5
5C
102
{ACAD_REACTORS
330
47
102
}
330
47
100
AcDbScale
 70
     0
300
1/16" = 1'-0"
140
0.0625
141
12.0
290
     0
  0
SCALE
  5
5D
102
{ACAD_REACTORS
330
47
102
}
330
47
100
AcDbScale
 70
     0
300
3/32" = 1'-0"
140
0.09375
141
12.0
290
     0
  0
SCALE
  5
5E
102
{ACAD_REACTORS
330
47
102
}
330
47
100
AcDbScale
 70
     0
300
1/8" = 1'-0"
140
0.125
141
12.0
290
     0
  0
SCALE
  5
5F
102
{ACAD_REACTORS
330
47
102
}
330
47
100
AcDbScale
 70
     0
300
3/16" = 1'-0"
140
0.1875
141
12.0
290
     0
  0
SCALE
  5
60
102
{ACAD_REACTORS
330
47
102
}
330
47
100
AcDbScale
 70
     0
300
1/4" = 1'-0"
140
0.25
141
12.0
290
     0
  0
SCALE
  5
61
102
{ACAD_REACTORS
330
47
102
}
330
47
100
AcDbScale
 70
     0
300
3/8" = 1'-0"
140
0.375
141
12.0
290
     0
  0
SCALE
  5
62
102
{ACAD_REACTORS
330
47
102
}
330
47
100
AcDbScale
 70
     0
300
1/2" = 1'-0"
140
0.5
141
12.0
290
     0
  0
SCALE
  5
63
102
{ACAD_REACTORS
330
47
102
}
330
47
100
AcDbScale
 70
     0
300
3/4" = 1'-0"
140
0.75
141
12.0
290
     0
  0
SCALE
  5
64
102
{ACAD_REACTORS
330
47
102
}
330
47
100
AcDbScale
 70
     0
300
1" = 1'-0"
140
1.0
141
12.0
290
     0
  0
SCALE
  5
65
102
{ACAD_REACTORS
330
47
102
}
330
47
100
AcDbScale
 70
     0
300
1-1/2" = 1'-0"
140
1.5
141
12.0
290
     0
  0
SCALE
  5
66
102
{ACAD_REACTORS
330
47
102
}
330
47
100
AcDbScale
 70
     0
300
3" = 1'-0"
140
3.0
141
12.0
290
     0
  0
SCALE
  5
67
102
{ACAD_REACTORS
330
47
102
}
330
47
100
AcDbScale
 70
     0
300
6" = 1'-0"
140
6.0
141
12.0
290
     0
  0
SCALE
  5
68
102
{ACAD_REACTORS
330
47
102
}
330
47
100
AcDbScale
 70
     0
300
1'-0" = 1'-0"
140
12.0
141
12.0
290
     0
  0
ENDSEC
  0
EOF
